breakdown吉他谱-Jack Johnson精选吉他谱

歌手:Jack Johnson  分类:TXT吉他谱  来源:凡特吉他网  浏览次数:61  发布时间:2013-06-18
    凡特吉他网Jack Johnson吉他谱,breakdown吉他谱-Jack Johnson精选吉他谱,breakdown吉它谱,breakdownTXT吉它谱下载.凡特吉他谱网拥有齐全的吉他谱,提供最新吉他曲谱下载,Jack Johnsonbreakdown吉他六线谱.热门民谣吉他谱,民谣吉他谱,breakdown吉他和弦谱,TXT吉他谱.本站资源丰富,拥有上万首吉他谱子,欢迎下载Jack Johnson吉他谱子下载,民谣吉他谱.本站立志打造便捷的吉他自学平台,大量吉他教程,为广大吉他新手提供最新文
Intro:
E--------------8----------|---------7------|------5--5-------|-----------7---------|
B-----------8-------------|---8--8-----8---|----5-------5----|----8--8------8------|
G-------9-----------9-----|-9------------9-|-5-------------5-|-7---------------7---|
D---10-----------------10 |----------------|-----------------|---------------------|
A-------------------------|----------------|-----------------|---------------------|
E-------------------------|----------------|-----------------|---------------------|

Verse:(strum pattern is easy once you hear it.  Basically u-d u-d-u repeated over and over again with the following chords)
   C         Em       Am      G
E?-8------|--7-----|--5----|--7----|
B?-8------|--8-----|--5----|--8----|
G?-9------|--9-----|--5----|--7----|
D?-10-----|--9-----|--7----|--9----|
A--x------|--x-----|--x----|--x----|
E--x------|--x-----|--x----|--x----|


Chorus: (listen for the beat)
   C (open!)          Cadd2/B            Am                  G
E----0----0?-0-?0---|----0----0?-0?-0---|----0----0?-0--0--|----3?----3--3?-3--|
B----1----1?-1?-1---|----1----1?-1?-1---|----1----1--1--1--|----0?----0?-0?-0--|
G----0----0?-0?-0---|----0----0?-0?-0---|----2----2--2--2--|----0?----0?-0?-0--|
D----2----2?-2?-2---|----0----0?-0?-0---|----2----2--2--2--|----0?----0--0?-0--|
A-?3----------------|--2----------------|--0---------------|--3----------------|
E-------------------|-------------------|------------------|-------------------|

Bridge:
  C                    G        F           C                       G         F
E----0----0?-0-?0---|--------?-?-----------|-----0----0?-0--0--|--------------------------|
B----1----1?-1?-1---|--/3--3--3--1---1--1--|-----1----1--1--1--|----/3--3--3--1---1?-1----|
G----0----0?-0?-0---|--/4--4--4--2?--2?-2--|-----0----0--0--0--|----/4--4--4--2?--2?-2----|
D----2----2?-2?-2---|--/5--5?-5--3?--3?-3--|---?-2----2?-2--2--|----/5--5?-5--3?--3?-3----|
A-?3----------------|----------------------|--3----------------|--------------------------|
E-------------------|----------------------|-------------------|--------------------------|

Outro:
E---8---------------------------------8----------------------------|
B------10?-8-----------8-----------------10?-8-------------8-------|
G--------------8/9---------9---7p5----------------5?-7/9-------9---|
D------------------------------------------------------------------|
A------------------------------------------------------------------|
E------------------------------------------------------------------|


E---8---------------------------------8----------------------------|
B------10?-8-----------8-----------------10?-8-------------8-------|
G--------------8/9---------9---7p5----------------8/9--------------|
D------------------------------------------------------------------|
A------------------------------------------------------------------|
E------------------------------------------------------------------|

E---/10---8---5--|--12-----10----8---|--/10---8---5--|--12-----10-------|
B---/10---8---5--|--13-----10----8---|--/10---8---5--|--13-----10-------|
G----------------|-------------------|---------------|------------------|
D----------------|-------------------|---------------|------------------|
A----------------|-------------------|---------------|------------------|
E----------------|-------------------|---------------|------------------|

E---/10---8---5--|--15-----13----12---|--/10---8---5--|--12-----10-------|--8---|
B---/10---8---5--|--17-----15----13---|--/10---8---5--|--13-----10-------|--8---|
G----------------|--------------------|---------------|------------------|--9---|
D----------------|--------------------|---------------|------------------|--10--|
A----------------|--------------------|---------------|------------------|------|
E----------------|--------------------|---------------|------------------|------|

曲谱下载声明:本站曲谱均来源于网络及网友提供,请在下载吉他谱24小时内自行删除。若发现侵犯了您的版权,请邮件通知本站,我们会将涉及侵犯您版权的吉他谱删除。

AD